Deprecated: Methods with the same name as their class will not be constructors in a future version of PHP; plgSystemOfflajnParams has a deprecated constructor in /home/guitartutoronlin/public_html/plugins/system/offlajnparams/offlajnparams.php on line 21

Deprecated: Methods with the same name as their class will not be constructors in a future version of PHP; plgSystemOfflajnJoomla3compat has a deprecated constructor in /home/guitartutoronlin/public_html/plugins/system/offlajnjoomla3compat/offlajnjoomla3compat.php on line 83

Deprecated: Methods with the same name as their class will not be constructors in a future version of PHP; plgSystemDojoloader has a deprecated constructor in /home/guitartutoronlin/public_html/plugins/system/dojoloader/dojoloader.php on line 21

Warning: Cannot modify header information - headers already sent by (output started at /home/guitartutoronlin/public_html/plugins/system/offlajnparams/offlajnparams.php:21) in /home/guitartutoronlin/public_html/plugins/system/jch_optimize/platform/cache.php on line 192
Hammer-On - Guitar Tutor Online

Deprecated: Methods with the same name as their class will not be constructors in a future version of PHP; plgContentPlg_TCVN_JPlayer has a deprecated constructor in /home/guitartutoronlin/public_html/plugins/content/plg_tcvn_jplayer/plg_tcvn_jplayer.php on line 17

Hammer-On

Listen to audio example of this technique - 29kb HAMMER-ON: When you hammer a note on the guitar you play the first note using the pick, then the sound is continued when the next finger is hammered or slammed down on the string over the fretboard. Hammering is more about the speed of the finger going down rather than how quickly the second note is played after the first. Don't get timing confused with the speed of the hammer.

Hammer on Exercises

When playing hammering exercise you are playing all possible combinations of hammering. If you practice these exercises you will then be able to handle and hammering finger combination that arises in any song. The video example shows some of these exercises.

2 Finger Combinations

3 Finger Combinations

4 Finger Combination

1st, 2nd, 3rd & 4th fingers

|------------------------------------1h2h3h4-
|-----------------------------1h2h3h4--------
|----------------------1h2h3h4---------------
|---------------1h2h3h4----------------------
|--------1h2h3h4-----------------------------
|-1h2h3h4-----------------------------------
-

-1h2h3h4------------------------------------|
--------1h2h3h4-----------------------------|
---------------1h2h3h4----------------------|
----------------------1h2h3h4---------------|
-----------------------------1h2h3h4--------|
------------------------------------1h2h3h4-|

Open Hammers


|----------------0h1--------------------|
|-------------0h1---0h1-----------------|
|----------0h1---------0h1--------------|
|-------0h1---------------0h1-----------|
|----0h1---------------------0h1--------|
|-0h1---------------------------0h1-----|

Then use your...

  • open to 2nd
  • open to 3rd
  • open to 4th